Author: Nelson
Posted at: 27Apr, 2007
Lesson 4 - 結他 pick 技巧

Lesson - 1 - 左手按弦
左手按弦其一不可忽視的就是發力的位置, 這點很重要
部份人會誤以為用手背的骨位發力(不知道那點叫什麼=.=), 將手指推上按弘, 其實是個錯誤的方法

正確應該運用手指頭發力按弘, 同時, 姆指也應在背後默默出一分力......

在正式練習之前, 先跟大家講解一下左手手指的名稱, 及常會用到的六線譜;
1 : 代表食指 || 2 : 代表中指 || 3 : 代表無名指 || 4 : 代表尾指


在我們常看到的六線譜, 由結他下至上(即幼至粗), 最幼的叫 "e" 或 "1" 然後是 B, G, D, A;
至最粗的那條, 也叫 "e" , 或 "6", 參考以下:

Fig.1
E||-----------------------1------------|
B||---------1----------------1--------|
G||-----0------0----------------2----|
D||------------------------------------|
A||--3---------------0----------------|
E||------------------------------------|

上圖中由上而下看, 最上的那條線("E"/"1"), 就是結他的第一條弘(即最高音, 幼的那條)
直至最下那條, 則是結他的第六條弘(即最低音, 粗的那條)
至於那些數字是什麼呢? 就是代表結他的格數, 例如上圖中左起第一個數字"3",
就是結他上的第三格; "1"即是第一格; 而 "0" 呢 ? 它代表不用按任何弘, 照彈就可, 即是空弦.
而上圖中 3, 0, 1, 0. 已經標著這是一個 C chord, 接著是 F


好, 現在正式練習一下左手按弘的發力
先將
姆指收在結他頸第二格的背後, 放於最中間位置, 不要將姆指外露, 會影響手形及發力,
然後將食指按於第一格第四條弘上, 再將無名指按於第三格第四條弘上,
右手以 DOWN-UP PICK
如下圖重覆試彈:
Ex.1
E||------------------------------------|
B||------------------------------------|
G||------------------------------------|
D||---1----------------------3-------|
A||------------------------------------|
E||------------------------------------|
Tips:
* 記著是要用手指頭發力(正確的話, 手指按弘時是不會伸直的)
* 姆指放在第二格的頭背之後, 指頭不應外露, 同時也要為前面出一分力


接下來練習第二部份, 難點是需要進行過線, 如以上練習一樣,
將食指按於第一格第四條弘上, 再將無名指按於第三格第四條弘上, 彈完之後就到下一條弘, 即....
將食指按於第一格第三條弘上, 再將無名指按於第三格第三條弘上,
右手繼續以 DOWN-UP PICK 跟
如下圖試重覆彈:
Ex.2
E||------------------------------------|
B||------------------------------------|
G||----------------1-----3-----------|
D||---1-----3------------------------|
A||------------------------------------|
E||------------------------------------| 按下試聽結果
Tips:
* 過線時(即彈完第二粒音時), 將手指輕放於弘上, 這可消除過線時前音發出的聲

筆者建議初學者先每天抽20-30分鐘練習, 不要勉強使用太過長時間練, 手指需要有適當的休息
但不要放棄練
習! 很快就會有進步!



 
   
  [top] - [hknelson]